Jump to content
 

AVA medley on guitar i made


Recommended Posts

|-------------------------------------------------------------------||

|-------------------------------------------------------------------||

|--9-----9-----9------7---7--6-----6-------------------------------||

|----7-7---7-7---7-7----7-------7-----7----------------------------||

|-------------------------------------------------------------------||

|-------------------------------------------------------------------||

this is what i play\

for valkyrie that is

Link to post
Share on other sites

thats pretty good!!

i made my own little blink 182 medley, but i have no way of recording it without a microphone lol

you can buy chords that plug your guitar into the computer and record it that way

i bought one at the dollar store and it works fine , i use it to record bass for songs me and my friends make with fruityloops

Link to post
Share on other sites

|-------------------------------------------------------------------||

|-------------------------------------------------------------------||

|--9-----9-----9------7---7--6-----6-------------------------------||

|----7-7---7-7---7-7----7-------7-----7----------------------------||

|-------------------------------------------------------------------||

|-------------------------------------------------------------------||

this is what i play\

for valkyrie that is

It would be soooooooooo awesome if you could make a tab for one or two songs... I swear they would be the best!!!

Link to post
Share on other sites

Join the conversation

You can post now and register later. If you have an account, sign in now to post with your account.

Guest
Reply to this topic...

×   Pasted as rich text.   Restore formatting

  Only 75 emoji are allowed.

×   Your link has been automatically embedded.   Display as a link instead

×   Your previous content has been restored.   Clear editor

×   You cannot paste images directly. Upload or insert images from URL.

×
×
  • Create New...